 0 
SECTION
 2 
ENTITIES
 0 
TEXT
 8 
3
 62 
 3 
 10 
-50 
 20 
 50 
 30 
 0 
 50 
 0 
 7 
STANDARD
 40 
 6 
 1 
Lateral1
 0 
LINE
 8 
3
 62 
 3
 10 
 6 
 20 
 160 
 30 
 0 
 11 
 8.1 
 21 
 160 
 31 
 0 
 0 
LINE
 8 
3
 62 
 3
 10 
 8 
 20 
 0 
 30 
 0 
 11 
 178 
 21 
 0 
 31 
 0 
 0 
LINE
 8 
3
 62 
 3
 10 
 178 
 20 
 160 
 30 
 0 
 11 
 178 
 21 
 0 
 31 
 0 
 0 
TEXT
 8 
3
 62 
 3 
 10 
-12 
 20 
 162 
 30 
 0 
 50 
 0 
 7 
STANDARD
 40 
 4 
 1 
1172.00
 0 
LINE
 8 
3
 62 
 3
 10 
 6 
 20 
 140 
 30 
 0 
 11 
 8.1 
 21 
 140 
 31 
 0 
 0 
LINE
 8 
3
 62 
 3
 10 
 8 
 20 
 20 
 30 
 0 
 11 
 178 
 21 
 20 
 31 
 0 
 0 
LINE
 8 
3
 62 
 3
 10 
 178 
 20 
 140 
 30 
 0 
 11 
 178 
 21 
 20 
 31 
 0 
 0 
TEXT
 8 
3
 62 
 3 
 10 
-12 
 20 
 142 
 30 
 0 
 50 
 0 
 7 
STANDARD
 40 
 4 
 1 
1170.00
 0 
LINE
 8 
3
 62 
 3
 10 
 6 
 20 
 120 
 30 
 0 
 11 
 8.1 
 21 
 120 
 31 
 0 
 0 
LINE
 8 
3
 62 
 3
 10 
 8 
 20 
 40 
 30 
 0 
 11 
 178 
 21 
 40 
 31 
 0 
 0 
LINE
 8 
3
 62 
 3
 10 
 178 
 20 
 120 
 30 
 0 
 11 
 178 
 21 
 40 
 31 
 0 
 0 
TEXT
 8 
3
 62 
 3 
 10 
-12 
 20 
 122 
 30 
 0 
 50 
 0 
 7 
STANDARD
 40 
 4 
 1 
1168.00
 0 
LINE
 8 
3
 62 
 3
 10 
 6 
 20 
 100 
 30 
 0 
 11 
 8.1 
 21 
 100 
 31 
 0 
 0 
LINE
 8 
3
 62 
 3
 10 
 8 
 20 
 60 
 30 
 0 
 11 
 178 
 21 
 60 
 31 
 0 
 0 
LINE
 8 
3
 62 
 3
 10 
 178 
 20 
 100 
 30 
 0 
 11 
 178 
 21 
 60 
 31 
 0 
 0 
TEXT
 8 
3
 62 
 3 
 10 
-12 
 20 
 102 
 30 
 0 
 50 
 0 
 7 
STANDARD
 40 
 4 
 1 
1166.00
 0 
LINE
 8 
3
 62 
 3
 10 
 6 
 20 
 80 
 30 
 0 
 11 
 8.1 
 21 
 80 
 31 
 0 
 0 
LINE
 8 
3
 62 
 3
 10 
 8 
 20 
 80 
 30 
 0 
 11 
 178 
 21 
 80 
 31 
 0 
 0 
LINE
 8 
3
 62 
 3
 10 
 178 
 20 
 80 
 30 
 0 
 11 
 178 
 21 
 80 
 31 
 0 
 0 
TEXT
 8 
3
 62 
 3 
 10 
-12 
 20 
 82 
 30 
 0 
 50 
 0 
 7 
STANDARD
 40 
 4 
 1 
1164.00
 0 
LINE
 8 
3
 62 
 3
 10 
 6 
 20 
 60 
 30 
 0 
 11 
 8.1 
 21 
 60 
 31 
 0 
 0 
LINE
 8 
3
 62 
 3
 10 
 8 
 20 
 100 
 30 
 0 
 11 
 178 
 21 
 100 
 31 
 0 
 0 
LINE
 8 
3
 62 
 3
 10 
 178 
 20 
 60 
 30 
 0 
 11 
 178 
 21 
 100 
 31 
 0 
 0 
TEXT
 8 
3
 62 
 3 
 10 
-12 
 20 
 62 
 30 
 0 
 50 
 0 
 7 
STANDARD
 40 
 4 
 1 
1162.00
 0 
LINE
 8 
3
 62 
 3
 10 
 6 
 20 
 40 
 30 
 0 
 11 
 8.1 
 21 
 40 
 31 
 0 
 0 
LINE
 8 
3
 62 
 3
 10 
 8 
 20 
 120 
 30 
 0 
 11 
 178 
 21 
 120 
 31 
 0 
 0 
LINE
 8 
3
 62 
 3
 10 
 178 
 20 
 40 
 30 
 0 
 11 
 178 
 21 
 120 
 31 
 0 
 0 
TEXT
 8 
3
 62 
 3 
 10 
-12 
 20 
 42 
 30 
 0 
 50 
 0 
 7 
STANDARD
 40 
 4 
 1 
1160.00
 0 
LINE
 8 
3
 62 
 3
 10 
 6 
 20 
 20 
 30 
 0 
 11 
 8.1 
 21 
 20 
 31 
 0 
 0 
LINE
 8 
3
 62 
 3
 10 
 8 
 20 
 140 
 30 
 0 
 11 
 178 
 21 
 140 
 31 
 0 
 0 
LINE
 8 
3
 62 
 3
 10 
 178 
 20 
 20 
 30 
 0 
 11 
 178 
 21 
 140 
 31 
 0 
 0 
TEXT
 8 
3
 62 
 3 
 10 
-12 
 20 
 22 
 30 
 0 
 50 
 0 
 7 
STANDARD
 40 
 4 
 1 
1158.00
 0 
LINE
 8 
3
 62 
 3
 10 
 6 
 20 
 0 
 30 
 0 
 11 
 8.1 
 21 
 0 
 31 
 0 
 0 
LINE
 8 
3
 62 
 3
 10 
 8 
 20 
 160 
 30 
 0 
 11 
 178 
 21 
 160 
 31 
 0 
 0 
LINE
 8 
3
 62 
 3
 10 
 178 
 20 
 0 
 30 
 0 
 11 
 178 
 21 
 160 
 31 
 0 
 0 
TEXT
 8 
3
 62 
 3 
 10 
-12 
 20 
 2 
 30 
 0 
 50 
 0 
 7 
STANDARD
 40 
 4 
 1 
1156.00
 0 
LINE
 8 
3
 62 
 3
 10 
 8 
 20 
 0 
 30 
 0 
 11 
 8 
 21 
 100 
 31 
 0 
 0 
LINE
 8 
3
 62 
 3
 10 
-72 
 20 
 0 
 30 
 0 
 11 
 8 
 21 
 0 
 31 
 0 
 0 
LINE
 8 
2
 62 
 2
 10 
-72 
 20 
 0 
 30 
 0 
 11 
-72 
 21 
 0 
 31 
 0 
 0 
LINE
 8 
3
 62 
 3
 10 
 8 
 20 
 0 
 30 
 0 
 11 
 8 
 21 
 0 
 31 
 0 
 0 
LINE
 8 
3
 62 
 3
 10 
-72 
 20 
-10 
 30 
 0 
 11 
 8 
 21 
-10 
 31 
 0 
 0 
LINE
 8 
2
 62 
 2
 10 
 8 
 20 
-10 
 30 
 0 
 11 
 178 
 21 
-10 
 31 
 0 
 0 
TEXT
 8 
3
 62 
 3 
 10 
-68 
 20 
-9 
 30 
 0 
 50 
 0 
 7 
STANDARD
 40 
 4 
 1 
Staition/Manhole
 0 
LINE
 8 
3
 62 
 3
 10 
-72 
 20 
-30 
 30 
 0 
 11 
 8 
 21 
-30 
 31 
 0 
 0 
LINE
 8 
2
 62 
 2
 10 
 8 
 20 
-30 
 30 
 0 
 11 
 178 
 21 
-30 
 31 
 0 
 0 
TEXT
 8 
3
 62 
 3 
 10 
-68 
 20 
-29 
 30 
 0 
 50 
 0 
 7 
STANDARD
 40 
 4 
 1 
Ground Elevation
 0 
LINE
 8 
3
 62 
 3
 10 
-72 
 20 
-50 
 30 
 0 
 11 
 8 
 21 
-50 
 31 
 0 
 0 
LINE
 8 
2
 62 
 2
 10 
 8 
 20 
-50 
 30 
 0 
 11 
 178 
 21 
-50 
 31 
 0 
 0 
TEXT
 8 
3
 62 
 3 
 10 
-68 
 20 
-49 
 30 
 0 
 50 
 0 
 7 
STANDARD
 40 
 4 
 1 
Invert Elevation
 0 
LINE
 8 
3
 62 
 3
 10 
-72 
 20 
-60 
 30 
 0 
 11 
 8 
 21 
-60 
 31 
 0 
 0 
LINE
 8 
2
 62 
 2
 10 
 8 
 20 
-60 
 30 
 0 
 11 
 178 
 21 
-60 
 31 
 0 
 0 
TEXT
 8 
3
 62 
 3 
 10 
-68 
 20 
-59 
 30 
 0 
 50 
 0 
 7 
STANDARD
 40 
 4 
 1 
Distance
 0 
LINE
 8 
3
 62 
 3
 10 
-72 
 20 
-80 
 30 
 0 
 11 
 8 
 21 
-80 
 31 
 0 
 0 
LINE
 8 
2
 62 
 2
 10 
 8 
 20 
-80 
 30 
 0 
 11 
 178 
 21 
-80 
 31 
 0 
 0 
TEXT
 8 
3
 62 
 3 
 10 
-68 
 20 
-79 
 30 
 0 
 50 
 0 
 7 
STANDARD
 40 
 4 
 1 
KM
 0 
LINE
 8 
3
 62 
 3
 10 
-72 
 20 
-90 
 30 
 0 
 11 
 8 
 21 
-90 
 31 
 0 
 0 
LINE
 8 
2
 62 
 2
 10 
 8 
 20 
-90 
 30 
 0 
 11 
 178 
 21 
-90 
 31 
 0 
 0 
TEXT
 8 
3
 62 
 3 
 10 
-68 
 20 
-89 
 30 
 0 
 50 
 0 
 7 
STANDARD
 40 
 4 
 1 
Diameter
 0 
LINE
 8 
3
 62 
 3
 10 
-72 
 20 
 0 
 30 
 0 
 11 
-72 
 21 
-90 
 31 
 0 
 0 
LINE
 8 
3
 62 
 3
 10 
 8 
 20 
 0 
 30 
 0 
 11 
 8 
 21 
-90 
 31 
 0 
 0 
LINE
 8 
2
 62 
 2
 10 
 178 
 20 
 0 
 30 
 0 
 11 
 178 
 21 
-90 
 31 
 0 
 0 
TEXT
 8 
3
 62 
 3 
 10 
 8 
 20 
-7.5 
 30 
 0 
 50 
 0 
 7 
STANDARD
 40 
 3 
 1 

 0 
TEXT
 8 
3
 62 
 3 
 10 
 58 
 20 
-7.5 
 30 
 0 
 50 
 0 
 7 
STANDARD
 40 
 3 
 1 

 0 
TEXT
 8 
3
 62 
 3 
 10 
 8 
 20 
-7.5 
 30 
 0 
 50 
 0 
 7 
STANDARD
 40 
 3 
 1 

 0 
LINE
 8 
21
 62 
 21
 10 
 8 
 20 
-10 
 30 
 0 
 11 
 8 
 21 
-30 
 31 
 0 
 0 
TEXT
 8 
3
 62 
 3 
 10 
 12 
 20 
-27.5 
 30 
 0 
 50 
 90 
 7 
STANDARD
 40 
 3 
 1 
1170.000
 0 
TEXT
 8 
3
 62 
 3 
 10 
 62 
 20 
-27.5 
 30 
 0 
 50 
 90 
 7 
STANDARD
 40 
 3 
 1 

 0 
TEXT
 8 
3
 62 
 3 
 10 
 4 
 20 
-27.5 
 30 
 0 
 50 
 90 
 7 
STANDARD
 40 
 3 
 1 

 0 
LINE
 8 
21
 62 
 21
 10 
 8 
 20 
-30 
 30 
 0 
 11 
 8 
 21 
-50 
 31 
 0 
 0 
TEXT
 8 
3
 62 
 3 
 10 
 12 
 20 
-47.5 
 30 
 0 
 50 
 90 
 7 
STANDARD
 40 
 3 
 1 
1167.350
 0 
TEXT
 8 
3
 62 
 3 
 10 
 62 
 20 
-47.5 
 30 
 0 
 50 
 90 
 7 
STANDARD
 40 
 3 
 1 

 0 
TEXT
 8 
3
 62 
 3 
 10 
 4 
 20 
-47.5 
 30 
 0 
 50 
 90 
 7 
STANDARD
 40 
 3 
 1 

 0 
LINE
 8 
21
 62 
 21
 10 
 8 
 20 
-50 
 30 
 0 
 11 
 8 
 21 
-60 
 31 
 0 
 0 
TEXT
 8 
3
 62 
 3 
 10 
 33 
 20 
-57.5 
 30 
 0 
 50 
 0 
 7 
STANDARD
 40 
 3 
 1 
50.0
 0 
TEXT
 8 
3
 62 
 3 
 10 
 8 
 20 
-77.5 
 30 
 0 
 50 
 90 
 7 
STANDARD
 40 
 3 
 1 
0+00
 0 
TEXT
 8 
3
 62 
 3 
 10 
 58 
 20 
-77.5 
 30 
 0 
 50 
 90 
 7 
STANDARD
 40 
 3 
 1 
0+050
 0 
TEXT
 8 
3
 62 
 3 
 10 
 8 
 20 
-77.5 
 30 
 0 
 50 
 90 
 7 
STANDARD
 40 
 3 
 1 

 0 
LINE
 8 
21
 62 
 21
 10 
 8 
 20 
-80 
 30 
 0 
 11 
 8 
 21 
-90 
 31 
 0 
 0 
TEXT
 8 
3
 62 
 3 
 10 
 33 
 20 
-87.5 
 30 
 0 
 50 
 0 
 7 
STANDARD
 40 
 3 
 1 
400
 0 
LINE
 8 
41
 62 
 41
 10 
 8 
 20 
 160 
 30 
 0 
 11 
 8 
 21 
 0 
 31 
 0 
 0 
LINE
 8 
4
 62 
 30
 10 
 8 
 20 
 141 
 30 
 0 
 11 
 58 
 21 
 139.00048828125 
 31 
 0 
 0 
LINE
 8 
5
 62 
 5
 10 
 7 
 20 
 113.4998 
 30 
 0 
 11 
 58 
 21 
 111.5002 
 31 
 0 
 0 
LINE
 8 
5
 62 
 5
 10 
 9 
 20 
 117.499755859375 
 30 
 0 
 11 
 57 
 21 
 115.500244140625 
 31 
 0 
 0 
LINE
 8 
5
 62 
 5
 10 
 9 
 20 
 140 
 30 
 0 
 11 
 9 
 21 
 117.499755859375 
 31 
 0 
 0 
LINE
 8 
5
 62 
 5
 10 
 57 
 20 
 138.0005 
 30 
 0 
 11 
 57 
 21 
 115.500244140625 
 31 
 0 
 0 
LINE
 8 
5
 62 
 5
 10 
 7 
 20 
 140 
 30 
 0 
 11 
 7 
 21 
 113.4998 
 31 
 0 
 0 
LINE
 8 
5
 62 
 5
 10 
 57 
 20 
 111.5002 
 30 
 0 
 11 
 57 
 21 
 111.5002 
 31 
 0 
 0 
TEXT
 8 
3
 62 
 3 
 10 
 58 
 20 
-7.5 
 30 
 0 
 50 
 0 
 7 
STANDARD
 40 
 3 
 1 

 0 
TEXT
 8 
3
 62 
 3 
 10 
 108 
 20 
-7.5 
 30 
 0 
 50 
 0 
 7 
STANDARD
 40 
 3 
 1 

 0 
TEXT
 8 
3
 62 
 3 
 10 
 58 
 20 
-7.5 
 30 
 0 
 50 
 0 
 7 
STANDARD
 40 
 3 
 1 

 0 
LINE
 8 
21
 62 
 21
 10 
 58 
 20 
-10 
 30 
 0 
 11 
 58 
 21 
-30 
 31 
 0 
 0 
TEXT
 8 
3
 62 
 3 
 10 
 62 
 20 
-27.5 
 30 
 0 
 50 
 90 
 7 
STANDARD
 40 
 3 
 1 
1169.800
 0 
TEXT
 8 
3
 62 
 3 
 10 
 112 
 20 
-27.5 
 30 
 0 
 50 
 90 
 7 
STANDARD
 40 
 3 
 1 

 0 
TEXT
 8 
3
 62 
 3 
 10 
 54 
 20 
-27.5 
 30 
 0 
 50 
 90 
 7 
STANDARD
 40 
 3 
 1 

 0 
LINE
 8 
21
 62 
 21
 10 
 58 
 20 
-30 
 30 
 0 
 11 
 58 
 21 
-50 
 31 
 0 
 0 
TEXT
 8 
3
 62 
 3 
 10 
 62 
 20 
-47.5 
 30 
 0 
 50 
 90 
 7 
STANDARD
 40 
 3 
 1 
1167.150
 0 
TEXT
 8 
3
 62 
 3 
 10 
 112 
 20 
-47.5 
 30 
 0 
 50 
 90 
 7 
STANDARD
 40 
 3 
 1 

 0 
TEXT
 8 
3
 62 
 3 
 10 
 54 
 20 
-47.5 
 30 
 0 
 50 
 90 
 7 
STANDARD
 40 
 3 
 1 

 0 
LINE
 8 
21
 62 
 21
 10 
 58 
 20 
-50 
 30 
 0 
 11 
 58 
 21 
-60 
 31 
 0 
 0 
TEXT
 8 
3
 62 
 3 
 10 
 83 
 20 
-57.5 
 30 
 0 
 50 
 0 
 7 
STANDARD
 40 
 3 
 1 
50.0
 0 
TEXT
 8 
3
 62 
 3 
 10 
 58 
 20 
-77.5 
 30 
 0 
 50 
 90 
 7 
STANDARD
 40 
 3 
 1 

 0 
TEXT
 8 
3
 62 
 3 
 10 
 108 
 20 
-77.5 
 30 
 0 
 50 
 90 
 7 
STANDARD
 40 
 3 
 1 
0+100
 0 
TEXT
 8 
3
 62 
 3 
 10 
 58 
 20 
-77.5 
 30 
 0 
 50 
 90 
 7 
STANDARD
 40 
 3 
 1 

 0 
LINE
 8 
21
 62 
 21
 10 
 58 
 20 
-80 
 30 
 0 
 11 
 58 
 21 
-90 
 31 
 0 
 0 
TEXT
 8 
3
 62 
 3 
 10 
 83 
 20 
-87.5 
 30 
 0 
 50 
 0 
 7 
STANDARD
 40 
 3 
 1 
400
 0 
LINE
 8 
41
 62 
 41
 10 
 58 
 20 
 160 
 30 
 0 
 11 
 58 
 21 
 0 
 31 
 0 
 0 
LINE
 8 
4
 62 
 30
 10 
 58 
 20 
 139.00048828125 
 30 
 0 
 11 
 108 
 21 
 136.999755859375 
 31 
 0 
 0 
LINE
 8 
5
 62 
 5
 10 
 58 
 20 
 111.5002 
 30 
 0 
 11 
 108 
 21 
 109.5007 
 31 
 0 
 0 
LINE
 8 
5
 62 
 5
 10 
 59 
 20 
 115.500244140625 
 30 
 0 
 11 
 107 
 21 
 113.500732421875 
 31 
 0 
 0 
LINE
 8 
5
 62 
 5
 10 
 59 
 20 
 138.0005 
 30 
 0 
 11 
 59 
 21 
 115.500244140625 
 31 
 0 
 0 
LINE
 8 
5
 62 
 5
 10 
 107 
 20 
 135.9998 
 30 
 0 
 11 
 107 
 21 
 113.500732421875 
 31 
 0 
 0 
LINE
 8 
5
 62 
 5
 10 
 107 
 20 
 109.5007 
 30 
 0 
 11 
 107 
 21 
 109.5007 
 31 
 0 
 0 
TEXT
 8 
3
 62 
 3 
 10 
 108 
 20 
-7.5 
 30 
 0 
 50 
 0 
 7 
STANDARD
 40 
 3 
 1 

 0 
TEXT
 8 
3
 62 
 3 
 10 
 158 
 20 
-7.5 
 30 
 0 
 50 
 0 
 7 
STANDARD
 40 
 3 
 1 

 0 
TEXT
 8 
3
 62 
 3 
 10 
 108 
 20 
-7.5 
 30 
 0 
 50 
 0 
 7 
STANDARD
 40 
 3 
 1 

 0 
LINE
 8 
21
 62 
 21
 10 
 108 
 20 
-10 
 30 
 0 
 11 
 108 
 21 
-30 
 31 
 0 
 0 
TEXT
 8 
3
 62 
 3 
 10 
 112 
 20 
-27.5 
 30 
 0 
 50 
 90 
 7 
STANDARD
 40 
 3 
 1 
1169.600
 0 
TEXT
 8 
3
 62 
 3 
 10 
 162 
 20 
-27.5 
 30 
 0 
 50 
 90 
 7 
STANDARD
 40 
 3 
 1 
1169.400
 0 
TEXT
 8 
3
 62 
 3 
 10 
 104 
 20 
-27.5 
 30 
 0 
 50 
 90 
 7 
STANDARD
 40 
 3 
 1 

 0 
LINE
 8 
21
 62 
 21
 10 
 158 
 20 
-10 
 30 
 0 
 11 
 158 
 21 
-30 
 31 
 0 
 0 
LINE
 8 
21
 62 
 21
 10 
 108 
 20 
-30 
 30 
 0 
 11 
 108 
 21 
-50 
 31 
 0 
 0 
TEXT
 8 
3
 62 
 3 
 10 
 112 
 20 
-47.5 
 30 
 0 
 50 
 90 
 7 
STANDARD
 40 
 3 
 1 
1166.950
 0 
TEXT
 8 
3
 62 
 3 
 10 
 162 
 20 
-47.5 
 30 
 0 
 50 
 90 
 7 
STANDARD
 40 
 3 
 1 
1166.750
 0 
TEXT
 8 
3
 62 
 3 
 10 
 104 
 20 
-47.5 
 30 
 0 
 50 
 90 
 7 
STANDARD
 40 
 3 
 1 

 0 
LINE
 8 
21
 62 
 21
 10 
 158 
 20 
-30 
 30 
 0 
 11 
 158 
 21 
-50 
 31 
 0 
 0 
LINE
 8 
21
 62 
 21
 10 
 108 
 20 
-50 
 30 
 0 
 11 
 108 
 21 
-60 
 31 
 0 
 0 
TEXT
 8 
3
 62 
 3 
 10 
 133 
 20 
-57.5 
 30 
 0 
 50 
 0 
 7 
STANDARD
 40 
 3 
 1 
50.0
 0 
LINE
 8 
21
 62 
 21
 10 
 158 
 20 
-50 
 30 
 0 
 11 
 158 
 21 
-60 
 31 
 0 
 0 
TEXT
 8 
3
 62 
 3 
 10 
 108 
 20 
-77.5 
 30 
 0 
 50 
 90 
 7 
STANDARD
 40 
 3 
 1 

 0 
TEXT
 8 
3
 62 
 3 
 10 
 158 
 20 
-77.5 
 30 
 0 
 50 
 90 
 7 
STANDARD
 40 
 3 
 1 
0+150
 0 
TEXT
 8 
3
 62 
 3 
 10 
 108 
 20 
-77.5 
 30 
 0 
 50 
 90 
 7 
STANDARD
 40 
 3 
 1 

 0 
LINE
 8 
21
 62 
 21
 10 
 108 
 20 
-80 
 30 
 0 
 11 
 108 
 21 
-90 
 31 
 0 
 0 
TEXT
 8 
3
 62 
 3 
 10 
 133 
 20 
-87.5 
 30 
 0 
 50 
 0 
 7 
STANDARD
 40 
 3 
 1 
400
 0 
LINE
 8 
21
 62 
 21
 10 
 158 
 20 
-80 
 30 
 0 
 11 
 158 
 21 
-90 
 31 
 0 
 0 
LINE
 8 
41
 62 
 41
 10 
 108 
 20 
 160 
 30 
 0 
 11 
 108 
 21 
 0 
 31 
 0 
 0 
LINE
 8 
41
 62 
 41
 10 
 158 
 20 
 160 
 30 
 0 
 11 
 158 
 21 
 0 
 31 
 0 
 0 
LINE
 8 
4
 62 
 30
 10 
 108 
 20 
 136.999755859375 
 30 
 0 
 11 
 158 
 21 
 135.000244140625 
 31 
 0 
 0 
LINE
 8 
5
 62 
 5
 10 
 108 
 20 
 109.5007 
 30 
 0 
 11 
 158 
 21 
 107.5012 
 31 
 0 
 0 
LINE
 8 
5
 62 
 5
 10 
 109 
 20 
 113.500732421875 
 30 
 0 
 11 
 157 
 21 
 111.501220703125 
 31 
 0 
 0 
LINE
 8 
5
 62 
 5
 10 
 109 
 20 
 135.9998 
 30 
 0 
 11 
 109 
 21 
 113.500732421875 
 31 
 0 
 0 
LINE
 8 
5
 62 
 5
 10 
 157 
 20 
 134.0002 
 30 
 0 
 11 
 157 
 21 
 111.501220703125 
 31 
 0 
 0 
LINE
 8 
5
 62 
 5
 10 
 159 
 20 
 134.0002 
 30 
 0 
 11 
 159 
 21 
 111.501220703125 
 31 
 0 
 0 
LINE
 8 
5
 62 
 5
 10 
 157 
 20 
 107.5012 
 30 
 0 
 11 
 157 
 21 
 0 
 31 
 0 
 0 
ENDSEC
 0 
EOF
